Rabarberu Vīns [TAB]

Sestā Jūdze

Izpildītājs:
Sestā Jūdze
Birkas:
tab
Nosaukums:
Rabarberu Vīns [TAB]
Dalīties:
Seko jaunumiem:
      Baritone/capo 1.fret)              
B ||-------------------------------------------------------|
F#||-------------------------------------------------------|
D ||-------------------------------------------------------|
A ||-------------------------------------------0-----------|
E ||----------------------------------------------4--2--0--|
B ||----------------------------------------0--------------|


  C                                                 F                      
------------------------|------------------------|------------------------|
------------------------|------------------------|------------------------|
------------------------|------------------------|------------------------|
------------0-----------|------------------------|------------------------|
--2------------4--2--0--|--2---------0-----2-----|--2s-4------2--0--------|
---------0--------------|---------0-----0-----0--|------------------------|


                           C                                               
------------------------|------------------------|------------------------|
------------------------|------------------------|------------------------|
------------------------|------------------------|------------------------|
------------0-----------|------------0-----0--2--|------------------------|
---------------4--2--0--|--2------------4--------|--2---------0-----2-----|
---------0--------------|---------0--------------|---------0-----0-----0--|

      
  F                                                                                                         
------------------------|
------------------------|
------------------------|
------------------------|
--2s-4------2--0--------|
------------------------|



Solo
                           C                                               
------------------------|------------------------|------------------------|
------------------------|------------------------|------------------------|
------------------------|------------------------|------------------------|
------------0-----------|------------0-----------|------------------------|
---------------4--2--0--|--2------------4--2--0--|--2---------0-----2-----|
---------0--------------|---------0--------------|---------0-----0-----0--|


  F                                                 C                      
------------------------|------------------------|------------------------|
------------------------|------------------------|------------------------|
------------------------|------------------------|------------------------|
------------------------|------------0-----------|------------0-----0--2--|
--2s-4------2--0--------|---------------4--2--0--|--2------------4--------|
------------------------|---------0--------------|---------0--------------|


                           F                                            
------------------------|------------------------|---------------------|
------------------------|------------------------|---------------------|
------------------------|------------------------|---------------------|
------------------------|------------2-----------|----------------0----|
--2---------0-----2-----|--2s-4---------4--------|-----------4---------|
---------0-----0-----0--|------------------------|---------------------|


                          F7                     Bb                    
-----------------------|----------------------|-----------------------|
-----------------------|----------------------|-----------------------|
-----------------------|----------------------|-----------------------|
--2------2--2--2----4--|-------2----0---------|--------------------0--|
-----------------------|-----------------4----|--2------0--2--4-------|
-----------------------|----------------------|-----------------------|


  Gm                       C                                               
------------------------|------------------------|------------------------|
------------------------|------------------------|------------------------|
------------------------|------------------------|------------------------|
------------0-----------|------------0-----------|------------------------|
---------------4--2--0--|--2------------4--2--0--|--2---------0-----2-----|
---------0--------------|---------0--------------|---------0-----0-----0--|


  F                                               Coda                      
--------------------------|-------------------|------------------------|
--------------------------|-------------------|------------------------|
--------------------------|-------------------|------------------------|
------------2--4-----2----|-------------------|------------0-----------|
--2s-4------------4-------|-------------------|---------------4--2--0--|
--------------------------|-------------------|---------0--------------|


  C                                                 F                           
------------------------|------------------------|------------------------|
------------------------|------------------------|------------------------|
------------------------|------------------------|------------------------|
------------0-----------|------------------------|------------------------|
--2------------4--2--0--|--2---------0-----2-----|--2s-4------2--0--------|
---------0--------------|---------0-----0-----0--|------------------------|


                           C                                               
------------------------|------------------------|------------------------|
------------------------|------------------------|------------------------|
------------------------|------------------------|------------------------|
------------0-----------|------------0-----0--2--|------------------------|
--L------------4--2--0--|--2------------4--------|--2---------0-----2-----|
---------0--------------|---------0--------------|---------0-----0-----0--|


  F                                                        
---------------------------|-------------------||
---------------------------|-------------------||
---------------------------|-------------------||
---------2-----------------|-------------------||
--2s-4--------4s--2--------|--0----------------||
---------------------2--0--|-------------------||