Rudens [TAB]

Prāta Vētra/Brainstorm

Izpildītājs:
Prāta Vētra/Brainstorm
Birkas:
tab
Nosaukums:
Rudens [TAB]
Dalīties:
Seko jaunumiem:
   EADGBe                              TheD
   440 Mz

 intro
|--------------------------------------|--------------------------------------|
|----------------11--11-11-------------|----------------11--11----14-14-13----|
|-10-12-10-12-13-----------13-13-12-10-|-10-12-10-12-13--------10----------13-|
|--------------------------------------|--------------------------------------|
|--------------------------------------|--------------------------------------|
|--------------------------------------|--------------------------------------|

 verse
|-0-0---0-0---2-2-------|
|-0---0-2---2-3---3-----|
|-0-----2-----4----4----|
|-2-----2-----4------4--|
|-2-----0-----2-------2-|
|-0-----0---------------|

 pre-chorus
|-3---0-| 
|-0---2-|
|-0---2-|  strum
|-0---2-|
|-2---0-|
|-3---0-|

 chorus
|-0---0---2-|
|-0---2---3-|
|-0---2---4-|  strum   
|-2---2---4-|            Kameer viena gjitaara speelee chorus otra dragaa intro un izliekaas,
|-2---0---2-|            ka tas ir kkaads nenormaals solo!
|-0---0-----|