Zīlīte (solo) 2

Līvi

Izpildītājs:
Līvi
Nosaukums:
Zīlīte (solo) 2
Dalīties:
Seko jaunumiem:
e---------------------------------------------
b--10-8-7-8--8-7------------7-----------------
g----------------9-7----7-9---9-7---7---------
d---------------------9-----------9---9-7---7-
a-----------------------------------------9---
e---------------------------------------------

e-----------------------------------------------
b-10-10-8-7-8--8-7------------------------------
g------------------9-7--10-9-7---7---10-9-7---7-
d---------------------9--------9---9--------9---
a-----------------------------------------------
e-----------------------------------------------