Vakara Vējā (intro) [TAB]

Bet Bet

Izpildītājs:
Bet Bet
Birkas:
tab
Nosaukums:
Vakara Vējā (intro) [TAB]
Dalīties:
Seko jaunumiem:
D|-------------9------------------------------------------
A|--11-11p9---------------9h11p9------12--12-12p11-9-11---
F|----------11----10/11---------12p11---------------------
C|--------------------------------------------------------
G|--------------------------------------------------------
D|--------------------------------------------------------

D|-------------9--11-11p9--------------------------13-14--
A|--11-11p9---------------12\11-----------11h12p11--------
F|----------11-------------------11p10h11-----------------
C|--------------------------------------------------------
G|--------------------------------------------------------
D|--------------------------------------------------------