Zīlīte (intro)

Līvi

Izpildītājs:
Līvi
Nosaukums:
Zīlīte (intro)
Dalīties:
Seko jaunumiem:
E-10-8-7-8---787-------------------------------------
B----------------10-8--------8-10-10^-8---8----------
G----------------------9-7-9------------9---9-7---7--
D-----------------------------------------------9----
A----------------------------------------------------
E----------------------------------------------------


E-10-8-7-8---787--------------------------------------
B----------------10-8---10^-8---8--10^-8---8----------
G-----------------------------9----------9------------
D-----------------------------------------------------
A-----------------------------------------------------
E-----------------------------------------------------

 no Parka