Piedod Man 2

Līvi

Izpildītājs:
Līvi
Nosaukums:
Piedod Man 2
Dalīties:
Seko jaunumiem:
Tuning:Standard E.

Chords(Akordi):
  C5;   F5;   G5;   D5;   A5.
E|---| |---| |---| |---| |---|
B|---| |---| |---| |---| |---|
G|-5-| |---| |---| |-7-| |---|
D|-5-| |-3-| |-5-| |-7-| |-7-|
A|-3-| |-3-| |-5-| |-5-| |-7-|
E|---| |-1-| |-3-| |---| |-5-|


Galvenais Rifs(Main Riff,tā ir tā frāze,kas daudz jāatkārto):

   C5                      F5                      G5
E|-----------------------------------------------------------------------
B|-----------------------------------------------------------------------
G|-5—----5---5-5----5----5-----------------------------------------------
D|-5—----5---5-5----5----5-3----3----3-3----3----3-5----5----5-5----5----
A|-3—----3---3-3----3----3-3----3----3-3----3----3-5----5----5-5----5----
E|-------------------------1----1----1-1----1----1-3----3----3-3----3----

   C5
|------------------------|
|------------------------|
|--5----5----5-5----5----|
|5-5----5----5-5----5----|
|5-3----3----3-3----3----|
|3-----------------------|



Lyrics(Vārdi):

Verse 1:

Piedod man ka nokavēju
Piedod man ka tā

Piedod man ka nevarēju
Piedod mīļotā

 
Piedod man ka dzīve tāda
Piedod man ka tā

Piedod man ka esi nekāda
Piedod mīļotā
 
Piedod man ka esmu nabags
Piedod man vēl reizi vien

Piedod man ka neatnācu
Piedod man ka laiks tā skrien
 
Chorus 1:
Piedod man ka esmu priecīgs
Piedod man ka man nav žēl
Piedod man ka esmu niecīgs
Piedod man kad ir par vēl
 
 
 
Verse 2:

Piedod man ka apsolīju
Piedod man ka tā

Piedod man ka tāds es biju
Piedod mīļotā
 
Piedod man ka dzīve grūta
Piedod man ka tā
 
Piedod man ka savādāk būtu
Nebūtu nekā

Chorus 2(VISI apakšā esošie panti): 

Piedod man ka esmu nabags
Piedod man vēl reizi vien
Piedod man ka neatnācu
Piedod man ka laiks tā skrien
 
Piedod man ka esmu priecīgs
Piedod man ka man nav žēl
Piedod man ka esmu niecīgs
Piedod man kad ir par vēls
 
 
Piedod man ka esmu nabags
Piedod man vēl reizi vien
Piedod man ka neatnācu
Piedod man ka laiks tā skrien
 

Piedod man ka esmu priecīgs
Piedod man ka man nav žēl
Piedod man ka esmu niecīgs
Piedod man kad ir par vēēē-ēēē-ēēēls!!!!


Šis tabs būtībā ir domāts ritma ģitāristiem(lai gan kāda starpība!? XD)
Lai visu atkostu pilnībā – klausies dziesmu!!! ;)