Plaukstas Lieluma Pavasaris (Bass)

Prāta Vētra/Brainstorm

Izpildītājs:
Prāta Vētra/Brainstorm
Nosaukums:
Plaukstas Lieluma Pavasaris (Bass)
Dalīties:
Seko jaunumiem:
Prāta Vētra - Plaukstas Lieluma Pavasaris

h  - turēt
/  - slīdēt
|| - atkārtot cik reizes nepieciešams

G-|--------------------------------------------------------------------------|
D-|--------------------------------------------------------------------------|
A-|-7-5---------------------78-8-8-8-8-8-8h7-5-5-5-5-5-5-5-567-7-7-7-7-5-----|
E-|-----8-7-5-5-5-5-5-5-5-5----------------------------------------------8-7-|

G-|-----------------------------------------------------------------|
D-|-7-7-7-765-5-5-5----------------87-7-7-765-5-5-5-----------------|
A-|----------------45-5-5-567-7-7-7----------------45-5-5-567-7-7-7-|
E-|-----------------------------------------------------------------|

G-|--------------------------------------------------|
D-|------3-3----------------------3-3----------------|
A-|-3-3---3-3-4-5-5--6-7-7---3-3---3-3-4-5-5--6-7-7--|
E-|--3-3---------5-5----7-7/3-3-3---------5-5----7-7-|

G-|-------------------|-------------------|
D-|-------------------|-------------------|
A-|-5-5~----5-5-------|-3-3~----3-3-------|
E-|-----5-7-----5-5-5-|-----3-5-----3-3-3-|

G-|-------------------|---------------------|
D-|-------------------|---------------5-----|
A-|-5-5~----5-5-------|-3-3-3-2-----------5-|
E-|-----5-7-----5-5-5-|---------5-3-3---3---|

G-|------------------------------------------------------------------|
D-|------------------------------------------------------------------|
A-|-----------------78-8-8-8-8-8-8h7-5-5-5-5-5-5-5-567-7-7-7-7-5-----|
E-|-5-5-5-5-5-5-5-5----------------------------------------------8-7-|

G-|-----------------------------------------------------------------|
D-|-7-7-7-765-5-5-5----------------87-7-7-765-5-5-5-----------------|
A-|----------------45-5-5-567-7-7-7----------------45-5-5-567-7-7-7-|
E-|-----------------------------------------------------------------|

G-|----------------------------------------|
D-|------3-3----------------------3-3------|
A-|-3-3---3-3-4-5-5--6-7-7---3-3---3-3-4-5-|
E-|--3-3---------5-5----7-7/3-3-3----------|

G-||-------------------|-------------------|
D-||-------------------|-------------------|
A-||-5-5~----5-5-------|-3-3~----3-3-------|
E-||-----5-7-----5-5-5-|-----3-5-----3-3-3-|

G-|-------------------|---------------------||
D-|-------------------|---------------5-----||
A-|-5-5~----5-5-------|-3-3-3-2-----------5-||
E-|-----5-7-----5-5-5-|---------5-3-3---3---||

Tabulatūru veidoja - Aleksandrs Vilemsons
Ja ir nepieciešams video tad meklejiet YouTube profilā - boza112