Seskudāle

Līvi

Izpildītājs:
Līvi
Nosaukums:
Seskudāle
Dalīties:
Seko jaunumiem:
RITMU MEKLĒ UZ AUSĪM!!!!

Priekš solo tiek izmatota Am pentatonika. Pati gamma priekš solo ir pašā lejā, visus solo uz dzirdi atrast nav nemaz tik grūti, tikai jāiemācās pati gamma, un vairākas citas populāras tās formas, un uzmanīgi jāklausās. Tabu taisīju ievērojot dziesmas struktūru.


Ritma akustene.


Intro, 4x:

    D#/G        D/F#       C/E                        C5 var labi aizvietot ar C5, vai arī C.
e|-------------------------------|                                           e|--------|--0--|
b|---4-----------3----------1----|                                           b|--------|--1--|
g|---3-----------2----------0----|                                           g|--------|--0--|
d|---5-----------4----------2----|                                           d|---5----|--2--|
a|-------------------------------|                                           a|---3----|--3--|
e|-------------------------------|                                           e|--------|-----|

Kad sākas 1. Solo, tas pas pats, tikai ar citu ritmu(daudz strumošanas, jeb strinkšķināšanas);



1. pants, jeb Verse 1(rifi jāatkārto 2x):

     C     F/A      C     C5  C#5   D5  D#5     F
e|---0-----------|--0------------------------|------|
b|---1------6----|--1------------------------|--6---|
g|---0------5----|--0------------------------|--5---|
d|---2------7----|--2------5---6----7----8---|--7—--|
a|---3-----------|--3------3---4----5----6---|--8---|
e|---------------|---------------------------|------|

    D#/G        D/F#      C/E                   C/E var labi aizvietot ar C5, vai arī C.
e|-------------------------------|                                    e|--------|--0--|
b|---4-----------3----------1----|                                    b|--------|--1--|
g|---3-----------2----------0----|                                    g|--------|--0--|
d|---5-----------4----------2----|                                    d|---5----|--2--|
a|-------------------------------|                                    a|---3----|--3--|
e|-------------------------------|                                    e|---------|------|


Chorus:


    Am7                   Dm         Am un Dm 5x, sestajā reizē Dm vietā jāpēlē G akordu.
e|------------------|-----1-----|----3---|
b|---1--------------|-----3-----|----3---|
g|---0--------------|-----2-----|----0---|
d|---2--------------|-----0-----|----0---|
a|---0--------------|-----------|----2---|
e|------------------|-----------|----3---|



2. Pants, jeb Verse 2:
Tāpat, kā 1. Pants, bet ar izmaiņām 1. Taktī(un tā paliek arī turpmāk). Vienkārša C un F/A vietā ir šis:
    D#/G        D/F#       C/E       F/A           
e|----------------------------------------|                                           
b|---4-----------3----------1---------6---|                                           
g|---3-----------2----------0---------5---|                                           
d|---5-----------4----------2---------7---|                                           
a|----------------------------------------|                                           
e|----------------------------------------|   


    C      C5 C#5 D5 D#5        F
|---0------------------------|-------|
|---1------------------------|--6----|
|---0------------------------|--5----|
|---2------5---6----7----8---|--7—---|
|---3------3---4----5----6---|--8----|
| ---------------------------|-------|
                                       


Ģitāras solo:

Ritms zem ģitāras solo, tāpat, kā Chorus, tikai G akords jau 4.reizē un pēc tā iet Strinkšķinātais Intro rifiņš, arī 4x.

Chorus:
Tas pats, tikai G akords jau 4. reizē.

Verse;

Outro:

        D#/G      D/F#     C/E                C/E var labi aizvietot ar C5, vai arī C
e|---------------------------------|                                e|-----------|--0--|
b|---4-----------3----------1------|                                b|-----------|--1--|
g|---3-----------2----------0------|                                g|-----------|--0--|
d|---5-----------4----------2------|                                d|---5-------|--2--|
a|---------------------------------|                                a|---3-------|--3--|
e|---------------------------------|   viss 4x, bez strumošanas;    e|-----------|-----|


tad šitais rifs 4x, 4. reizē G akords 6 reizes, un tad Em akords. Beigas.

      Am7                Dm           G       Em
e|------------------|-----1------|----3---|----0----|
b|---1--------------|-----3------|----3---|----0----|
g|---0--------------|-----2------|----0---|----0----|
d|---2--------------|-----0------|----0---|----2----|
a|---0--------------|------------|----2---|----2----|
e|------------------|------------|----3---|----0----|








Gamma priekš solo:

  Am pentatonika.
e|------------------|
b|------------------|
g|------------------|
d|-------------5-7--|
a|--------5-7-------|
e|--5-8-------------|


  Am pentatonikas tipiskais “bokss”:
e|----------------------------5-8--|
b|-----------------------5-8-------|
g|------------------5-7------------|
d|-------------5-7-----------------|
a|--------5-7----------------------|
e|--5-8----------------------------|


Autora padoms(jā es varu ļerkstēt pat TIK daudz!!!! :D):

Par citām formām runājot, standarta "strojā", pentatonikām(VISIZPLATĪTĀKAJĀM, kā piemēram minora pentatonika) ir kopumā 5 dažādas formas(pareizāk gan būtu teikt, ka ir 5 dažādas pentatonikas, ja neskaita tās, kuras ir izmantojamas pārsvarā tikai džezā un pasaules mūzikā).
Iemācies arī tās, ja vēl neesi iemācījies/usies.