Saldus Saule 3

Līvi

Izpildītājs:
Līvi
Nosaukums:
Saldus Saule 3
Dalīties:
Seko jaunumiem:
Saldus saule
Ievada solo                                  Beigas spele 3reizes un tur kur ir šī zīme : un 13
                                             to spēle 3 reizē

       -11-13-15-15-13-15-13---13---15--|       --11-10-----11-10-----:13-----|
       ---------------------------------|       --------10--------10--:-------|
 x3    ---------------------------------|       ----------------------:-------|
       ---------------------------------|       ----------------------:-------|
       ---------------------------------|       ----------------------:-------|
Intro 
Gm Am Dm Dm 
B C Dm Dm 
Gm Am Dm Dm 
Gm Am B C C

1.Pantiņš
 Gm7       C              F
Rudenī viņa kā rupjmaize,
 Gm7       C              F
Siltiem gabaliem laužama
F           Em7           Dm
Ziemā kabatā sildīta
Gm7       C              F
Es viņu kā burkānu graužu

2.Pantiņš
F           Em7           Dm
Vasarā bērniem galviņas
 Gm7       C              F
Viņa tik mīļi pieglāsta
F           Em7           Dm
Ka atnākam gaidīšanai
 Gm7       C              F
Kļūst tik pavasar' viegla

.Piedziedājums.
 Gm                 Am         Dm     B              C   Dm       
Saule, ko vienreiz var iegūt, saule, ko nevar vairs zaudēt       
 Gm                 Am         Dm     Gm          Am  --BC
Saule, ko vienreiz var iegūt, saule, ko nevar vairs zaudēt 

3.Pantiņš
F           Em7           Dm
Pāri kapsētas kokiem austoša
 Gm7       C              F
Visur līdzi tā bijusi
F           Em7           Dm
Mana zelta kontrabanda
 Gm7       C              F
Mana kabatas baterija
.Piedziedājums.
 Gm                 Am         Dm     B              C   Dm    
Saule, ko vienreiz var zaudēt, saule, ko nevar vairs iegūt
Gm                 Am         Dm     Gm          Am  --BC
Saule, ko vienreiz var zaudēt, saule, ko nevar vairs iegūt

Nobeiguma Solo
                                                       
 .1.                                           .2.
                                                 2 daļu 4reizē spēlē lēnām 
       -11-13-15-15-13-15-13---13---15--|         --11-10-----11-10-----:13-----|
       ---------------------------------|         --------10--------10--:-------|
 x3    ---------------------------------|      x4 ----------------------:-------|
       ---------------------------------|         ----------------------:-------|
       ---------------------------------|         ----------------------:-------|