Zīlīte (solo) 3

Līvi

Izpildītājs:
Līvi
Nosaukums:
Zīlīte (solo) 3
Dalīties:
Seko jaunumiem:
e--10-8-7-8-7---------------7---------------------------l
b---------------10-8---8-10---10-8---8------------------l
g---------------------9---------------9---9-7-9-7-------l
d-------------------------------------------------------l
a-------------------------------------------------------l
e-------------------------------------------------------l

e---10-10-8-7-8-7-----------7--------------7------------l
b--------------------10-8-10---10-8---8-10--10-8---8----l
g-----------------------------------9------------9------l
d-------------------------------------------------------l
a-------------------------------------------------------l
e-------------------------------------------------------l