Spārni un vējš [TAB] 2

Putnu balle

Izpildītājs:
Putnu balle
Mūzikas autors:
Mārtiņš Freimanis
Vārdu autors:
Mārtiņš Freimanis
Birkas:
tab
Nosaukums:
Spārni un vējš [TAB] 2
Dalīties:
Seko jaunumiem:
Pilna dziesma

e---------8-7--------8-7-----10-8-7-----------------------------8-7--------8-7-----10-8-7---------------------1
b---8-10-------8-10-----------------7----7-8-10-----------8-10-------8-10-----------------7----7-8-10---------1
g-------------------------------------------------7----------------------------------------------------7------1
d-------------------------------------------------------------------------------------------------------------l
a-------------------------------------------------------------------------------------------------------------l
e-------------------------------------------------------------------------------------------------------------l

e--------------3-2---------3-2-------------------------------------------8-7-5-3-3--8-7-5--3-7-8--3-3-2-------1
b------------------1---1-1-----0--0-0---0-0--------------8-7-8--7-7-8-10--------------------------------------1
g-7-5-4-5--5-5------------------------2-----0-2-4-5--5-5------------------------------------------------------1
d-------------------------------------------------------------------------------------------------------------l
a-------------------------------------------------------------------------------------------------------------l
e-------------------------------------------------------------------------------------------------------------l


Tabs by Mārtiņš B.