Dzimtā valoda 3

Līvi

Izpildītājs:
Līvi
Mūzikas autors:
Ainars Virga
Vārdu autors:
Imants Ziedonis
Grigore Vieru
Birkas:
patriotiskās
Nosaukums:
Dzimtā valoda 3
Dalīties:
Seko jaunumiem:
INTRO un PANTS :  

C#m | C#m | D7 | G

Solo ģitara (p-pull off)

e|-------------------------------------------------------------------------3-------------------------------------|
B|-----3----------------3---------------------------5-----------------------------------------------------------|
G|---------5---------------5---------------------------7------------------------4-------4----------------------|
D|-----------------5----------------------5---------------------7--------------------3-------------------------|
A|-------------4---------------6-(p)-4--------------------5----------------------------------------------------|
E|--------------------------------------------------------------------------------------------------3-------------|
		C#m			         D7				G
Piedziedājums

C5 | G#5 | D#5 | C#5 |      (POWER CHORDS)

SOLO:
(p – pull off,  b –bend , b1\2 – half bend

e|-------------------------------------------------------------------------------------------------------------------------|
B|---------------------bend- 1\2------------------------------------------------------------------------------------|
G|----------------------7-7-7-7--5-----------------------------------------------------------------4-5-------------|
D|----5----5-3----5------------------5------5-3----4------5-7-----5-4-----6-5----3---2--------------------|
A|---------------6------------------------------------6-----------------------------------------------------------------|
E|-------------------------------------------------------------------------------------------------------------------------|

Pilna dziesmas GUITAR PRO 5 versija! Raksti e-pastu [email protected]! Nosūtīšu

Oskars Kalniņš