Bailes par ziņģi (SOLO)

Līvi

Izpildītājs:
Līvi
Nosaukums:
Bailes par ziņģi (SOLO)
Dalīties:
Seko jaunumiem:
Dziesmas pamata rifs:

E5 | C#5 | A5 | B5 |

e|---------------------------------------------------------------------------------------------------------------------------------|
B|--------------------------------------------------------------------------------------------------------------------------------|
G|----------------------------------------6-x--6-6---6-x--6-6-------------------------------------9-9-8----9-9--8---|
D|--2-x--2-2--x----2-x---2-2------6-x--6-6---6-x--6-4---7-x-7-7---7-x-7-7-----9--9-9-9----9-9--9--|
A|--2-x--2-2--x----2-x---2-2------4-x--4-4---4-x--4-4---7-x-7-7---7-x-7-7-----9--------------------------|
E|--0-x--0-0--x----0-x---0-0-------------------------------------5-x-5-5---5-x-5-5-----7--------------------------|

SOLO:
(b-BEND ,   pH-pinch harmonic)
e |------------------------------------------------------------------------------------------------------------------------------|
B |---12----12----------------------------------------------12----12-----------------------------------------------------|
G|----11(b)11(b)-11-9-11-9----------9(pH)---- 11(b)-11(b)--11-9-11-9------------------------9---|
D|----------------------------------------9-11--------------------------------------------------11-9-11---9-11------|
A|-------------------------------------------------------------------------------------------------------------------------------|
E |-------------------------------------------------------------------------------------------------------------------------------|

Pilnu dziesmu GUITAR PRO 5 versijā var iegūt rakstot man [email protected] (nosūtīšu)

Oskars Kalniņš