Elektriskā zivs (Guitar tab)

Līvi

Izpildītājs:
Līvi
Birkas:
tab guitar pro
Nosaukums:
Elektriskā zivs (Guitar tab)
Dalīties:
Seko jaunumiem:
INTRO
A5 | A5 | A5 | A5
Intro Solo:

e|--------------------------------------------------------------------------------------------------|
B|--------------------------------------------------------------------------------------------------|
G|-6---7-6-4-------5-4-7----7-6---------------------------------------------------------------|
D|-7---7-7-5-------5-5-7----7-7---------------------------------------------------------------|
A|--------------------------------------------------------------------------------------------------|
E|--------------------------------------------------------------------------------------------------|

PANTS:

A5 | F5 | G5 | A5|

VIRGAS  GRAND SOLO:

(Ah- artifical harmonic,  wb-whammy bar, b – bend)

e|------------------------------------------------------------------------------------------------------------------------|
B|------------------------------------------------------------------------------------------------------------------------|
G|--------------------------------------7(aH)------------------------------------------------------------------------|
D|------------------7(aH)------5-7----------5-7-5---------------------------------------------------------------|
A|-0--0-0-0-0------------00-------------------------7-5-7--3-5-3-2-----------------------------------------|
E|-----------------------------------------------------------------------------8-7-5-7-5-7-5(wb)---------- -----|

e|------------------------------------------------------------------------------------------------------------------------------------|
B|------------------------------------------------------------------------------------------------------------------------------------|
G|-------------------------------------------------------------------------------------------------------------------------------------|
D|--------------3--------------3--------------------------------3(nH)---------------------------------------5-5-7-7---------|
A|----------------------------------------------1-1-3-3-3-1-----------------------------3-3-5-5-7-7-----------------------|
E|-1---1-1-1-----1-1-1-1-----1-1-3-3----------------------------1-1-3-3-5-5------------------------------------------|

Pilnu dziesmas Guitar Pro versiju var lejupielādēt šeit: https://www.akordi.lv/faili/pro/Livi-Elektriska_Zivs.gp5 Guitar Pro tabus veidojas Oskars Kalnins