Dzelzsgriezējs (solo tab)

Līvi

Izpildītājs:
Līvi
Birkas:
tab guitar pro
Nosaukums:
Dzelzsgriezējs (solo tab)
Dalīties:
Seko jaunumiem:
Dziesmas ievada un piedz riffs:

A5 | C5 | D5 | G5 | A5 | C5 | A5 | C5 | D5 | G5 | G5 

e|-------------------------------------------------------------------------------------------------------------------|
B|--------------------------------------------------------------------------------------------------------------------|
G|-------------------------------------------------------------------------------------------------------------------|
D|---7--10-12-----12--5------5-7----7-7-7-10--------7--10-12-----12---55555555555---------------|
A|---7--10-12-----12--5------5-7----7-7-7-10--------7--10-12-----12---55555555555----------------|
E |--5--8--10-------10--3-----3-5----5-5-5--8----------5--8--10-----10----33333333333----------------|

Pants:
(pm-palm muted)
e|-------------------------------------------------------------------------------------------------------------------|
B|--------------------------------------------------------------------------------------------------------------------|
G|---pm---pm------------pm------------------------------pm----pm-----------pmpmpm------------------|
D|---77-7--77-7--7-10--10101010------12-----5-------77-7--77-7--7-10--10101010----12-----5--|
A|---77-7--77-7--7-10--10101010------12-----5-------77-7--77-7--7-10--10101010----12-----5--|
E |---55-5--55-5--5-8---8-8- 8- 8------10-----3-------55-5--55-5--5-8---8-8- 8- 8------10------3--|

SOLO:
e|------------------------------------------------------|-----------------------------------------------------------------|
B|------------------------------------------------------|------------------------------------------------------------------|
G|--7---------------7--------------10---------------|----9-10------------10-9-------------12-9-----------------------|
D|-----10-9-7--------9-10-7------9-10-7-----|-------------12-10----------12-10---------12-10--------------|
A|------------------------------------------------------|-------------------------------------------------------------------|
E |----------------------------------------------------|-------------------------------------------------------------------------|
	Pirmā ģitāra					                    Otrā ģitāra

e|-----------------------------------------------------------------|----------------------------------------------------------------------|
B|---15---------------15---------------17-------------------|---18-----------------18------------------20----------------------
G|-------17-16-14------17-16-14-----17-16-14---|---------21-19-17-------21-19-17--------21-19-17------
D|----------------------------------------------------------------|-------------------------------------------------------------------------
A|---------------------------------------------------------------|------------------------------------------------------------------------|
E |---------------------------------------------------------------|-----------------------------------------------------------------------

Pilnu dziesmas Guitar Pro versiju var lejupielādēt šeit: https://www.akordi.lv/faili/pro/Livi-Dzelzsgriezejs.gp5 Guitar Pro tabus veidojas Oskars Kalnins