Stils nevainīgs [TAB]

Detlefs

Izpildītājs:
Detlefs
Birkas:
tab ziemassvētku
Nosaukums:
Stils nevainīgs [TAB]
Dalīties:
Seko jaunumiem:
Standard tuning

Tabbed by: Mikus&Phil


Timing 4/4

Intro (git. 1)
heavy distortion (palm muted)
     4      1       2       3       4       1       2       3       4
E |-------------------------------------------------------------------------||
B |--f7---------------------------------------------------------------------||
G |-----f7------------------------------------------------------------------||
D |-------------------------------------------------------------------------||
A |---------5-5-5-5-5-5-5-5-5-5-5-5-5-5-5-5-5-5-5-5-5-5-5-5-5-5-5-5-5-5-5-5-||
E |-------------------------------------------------------------------------||


Verse (git. 1)

heavy distortion (palm muted)
     1       2       3       4       1       2       3       4
E |------------------------------------------------------------------||
B |------------------------------------------------------------------||
G |------------------------------------------------------------------||     2X
D |------------------------------------------------------------------||
A |--5-5-5-5-5-5-5-5-5-5-5-5-5-5-5-5-2-2-2-2-2-2-2-2-2-2-2-2-2-2-2-2-||
E |------------------------------------------------------------------||

     1       2       3       4       1       2       3       4      
E |------------------------------------------------------------------||
B |------------------------------------------------------------------||
G |------------------------------------------------------------------||    
D |------------------------------------------------------------------||
A |--------------------------------------------------2-2-2-2-2-2-2-2-||
E |--5-5-5-5-5-5-5-5-3-3-3-3-3-3-3-3-2-2-2-2-2-2-2-2-----------------||

  
     1       2       3       4       1       2       3       4
E |------------------------------------------------------------------||
B |------------------------------------------------------------------||
G |------------------------------------------------------------------||
D |------------------------------------------------------------------||
A |----------------------------------4-4-4-4-4-4-4-4-5-5-5-5-5-5-5-5-||
E |--5-5-5-5-5-5-5-5-3-3-3-3-3-3-3-3---------------------------------||

     1       2       3       4

E |----------------------------||
B |----------------------------||
G |----------------------------||
D |----------------------------||
A |--4-4-4-4-4-4-4-4-----------||
E |----------------------------||
                            (4+ drums)









Chorus (git. 2)
heavy distortion

     1       2       3       4       1       2       3       4
E |------------------------------------------------------------------||
B |------------------------------------------------------------------||
G |--7-7-7-7-7-7-7-7-4-4-4-4-4-4-4-4---------------------------------||     4X
D |--7-7-7-7-7-7-7-7-4-4-4-4-4-4-4-4-4-4-4-4-4-4-4-4-5-5-5-5-5-5-5-5-||
A |--5-5-5-5-5-5-5-5-2-2-2-2-2-2-2-2-4-4-4-4-4-4-4-4-5-5-5-5-5-5-5-5-||
E |----------------------------------2-2-2-2-2-2-2-2-3-3-3-3-3-3-3-3-||

     1       2       3       4       1       2       3       4
E |------------------------------------------------------------------||
B |------------------------------------------------------------------||
G |------------------------------------------------------------------||
D |--4/5-5-5-4/5-5-5-4/5-5-5-4/5-5-5-4/5-5-5-4/5-5-5-4/5-5-5-4/5-5-5-||
A |--4/5-5-5-4/5-5-5-4/5-5-5-4/5-5-5-4/5-5-5-4/5-5-5-4/5-5-5-4/5-5-5-||
E |--2/3-3-3-2/3-3-3-2/3-3-3-2/3-3-3-2/3-3-3-2/3-3-3-2/3-3-3-2/3-3-3-||



Verse


see above


Chorus

see above


Solo (git. 1 playing the solo and git. 2 playing chorus, both heavy distortion)

git.1 (I'm not sure if he plays the brackets, so figure out what is better for you)
     1       2       3       4       1       2       3       4
E |------------------------------------------------------------------||
B |------------------------------------------------------------------||
G |-(9----9--11-11-9-12---12-11-11-9-12---12-11-11-9-7--7----7--7)---||  < 4x  
D |-(x----x--x--x--x-x----x--x--x--x-x----x--x--x--x-x--x----x--x)---||
A |--7----7--9--9--7-10---10-9--9--7-10---10-9--9--7-5--5----5--5----||
E |------------------------------------------------------------------||

palm muted
     1       2       3       4       1       2       3       4
E |------------------------------------------------------------------||
B |--4-4-4-4-4-4-4-4-4-4-4-4-4-4-4-4-4-4-4-4-4-4-4-4-7-7-7-7-7-7-7-7-||
G |------------------------------------------------------------------||
D |------------------------------------------------------------------||
A |------------------------------------------------------------------||
E |------------------------------------------------------------------||

     1       2       3       4       1       2       3       4
E |------------------------------------------------------------------||
B |------------------------------------------------------------------||
G |--4-4-4-4-4-4-4-4-4-4-4-4-4-4-4-4-4-4-4-4-4-4-4-4-7-7-7-7-7-7-7-7-||
D |------------------------------------------------------------------||
A |------------------------------------------------------------------||
E |------------------------------------------------------------------||

     1       2       3       4       1       2       3       4
E |------------------------------------------------------------------||
B |------------------------------------------------------------------||
G |--7-7-7-7-7-7-7-7-7-7-7-7-7-7-7-7-7-7-7-7-7-7-7-7-----------------||
D |------------------------------------------------------------------||
A |------------------------------------------------------------------||
E |------------------------------------------------------------------||






Chorus

     1       2       3       4       1       2       3       4
E |------------------------------------------------------------------||
B |------------------------------------------------------------------||
G |--7-7-7-7-7-7-7-7-4-4-4-4-4-4-4-4---------------------------------||     4X  
D |--7-7-7-7-7-7-7-7-4-4-4-4-4-4-4-4-4-4-4-4-4-4-4-4-5-5-5-5-5-5-5-5-||
A |--5-5-5-5-5-5-5-5-2-2-2-2-2-2-2-2-4-4-4-4-4-4-4-4-5-5-5-5-5-5-5-5-||
E |----------------------------------2-2-2-2-2-2-2-2-3-3-3-3-3-3-3-3-||


Outro (git. 1 and 2 together)

git. 1 heavy distortion (palm muted)
     1       2       3       4       1       2       3       4
E |------------------------------------------------------------------||
B |--4-4-4-4-4-4-4-4-4-4-4-4-4-4-4-4-4-4-4-4-4-4-4-4-4-4-4-4-4-4-4-4-||
G |------------------------------------------------------------------||
D |------------------------------------------------------------------||
A |------------------------------------------------------------------||
E |------------------------------------------------------------------||

git.2 (heavy distortion)
     1       2       3       4       1       2       3       4
E |------------------------------------------------------------------||
B |------------------------------------------------------------------||
G |--7-7-7-7-7-7-7-7-4-4-4-4-4-4-4-4---------------------------------||  
D |--7-7-7-7-7-7-7-7-4-4-4-4-4-4-4-4-4-4-4-4-4-4-4-4-5-5-5-5-5-5-5-5-||
A |--5-5-5-5-5-5-5-5-2-2-2-2-2-2-2-2-4-4-4-4-4-4-4-4-5-5-5-5-5-5-5-5-||
E |----------------------------------2-2-2-2-2-2-2-2-3-3-3-3-3-3-3-3-||


git. 1 heavy distortion (palm muted)
     1       2       3       4       1       2       3        4
E |------------------------------------------------------------------||
B |-----------------------------------------------------f7-----------||
G |--4-4-4-4-4-4-4-4-4-4-4-4-4-4-4-4-4-4-4-4-4-4-4-4-f7--------------||
D |------------------------------------------------------------------||
A |------------------------------------------------------------------||
E |------------------------------------------------------------------||

git.2 (heavy distortion)
     1       2       3       4       1       2       3       4
E |------------------------------------------------------------------||
B |------------------------------------------------------------------||
G |--7-7-7-7-7-7-7-7-4-4-4-4-4-4-4-4---------------------------------||  
D |--7-7-7-7-7-7-7-7-4-4-4-4-4-4-4-4-4-4-4-4-4-4-4-4-----------------||
A |--5-5-5-5-5-5-5-5-2-2-2-2-2-2-2-2-4-4-4-4-4-4-4-4-----------------||
E |----------------------------------2-2-2-2-2-2-2-2-----------------||