Labradors solo [TAB]

Ainars Mielavs

Izpildītājs:
Ainars Mielavs
Birkas:
tab ziemassvētku
Nosaukums:
Labradors solo [TAB]
Dalīties:
Seko jaunumiem:
         A                                                  B
e||----------------|------------------------------------------------------------------------------------
h||----------------|------------------------------------------------------------------------------------
g||----------------|--------------------------------------------------7-7-7-----------------------------
D||-----------7-9--|-10-9-7h9p7---7-9--------------10-9-7h9p7----7------------10-9h10p9p7-9----7h9------
A||----7-9-10------|-----------10------9-10-9----7------------10----------------------------10----------
E||-10-------------|--------------------------10----------------------------------------------------10--

                       B
-------------------------------------------------||
-------------------------------------------------||
-7-7-7-------------------------------------------||
--------10-9h10p9p7-9----7-----------------------||
----------------------10----------7-9-10-9----7--||
----------------------------10-10----------10----||


1. A + B
2. B