Ziemu apēst 3 (+TAB pantiņa)

Prāta Vētra/Brainstorm

Izpildītājs:
Prāta Vētra/Brainstorm
Mūzikas autors:
Prāta Vētra/Brainstorm
Vārdu autors:
Prāta Vētra/Brainstorm
Birkas:
tab
Nosaukums:
Ziemu apēst 3 (+TAB pantiņa)
Dalīties:
Seko jaunumiem:
Ģitāras partija, kura tiek spēlēta visos pantiņos:

(1)
E|-------------------------------------------|
B|-------------------------------------------|
G|----11----11---7---7---(7)---2---2---6---6-|
D|-------------------------------------------|
A|-------------------------------------------|
E|-10----10----7---7---(7)---2---2---5---5---|

(2)
E|---------------------------------------------------------------|
B|---------------------------------------------------------------|
G|----11----11---7---7---(7)----14----14----14----13----13----13-|
D|---------------------------------------------------------------|
A|---------------------------------------------------------------|
E|-10----10----7---7---(7)---14----14----14----12----12----12----|

(2*)
E|-------------------------|
B|-------------------------|
G|----11----11---7---7--14-|
D|-------------------------|
A|-------------------------|
E|-10----10----7---7----14-|


Ievads: D Bm F#m
        D Bm F#m

D          Bm
Kad paliek auksti
         F#m
Es gribu ziemu apēst
D           Bm
Sniegu apēst
   F#m
Kā konfekti.

(1)
Ledus gabalu lauskas trauslas
Slēpjas zem septītās ribas
(2)
Un tad, kad paliek auksti
Es ziemu, ziemu apēst gribu.
(1)
Bet naktīs nevaru aizmigt
Kad vētras ūdeņus plosa
(2)
Tad es jūtos kā vientuļa sala
Var kā krūzīte bez osas.

D          Bm
Kad paliek auksti
         F#m
Es gribu ziemu apēst
D           Bm
Sniegu apēst
   F#m
Kā konfekti.

D          Bm
Kad paliek auksti
         F#m
Es gribu ziemu apēst
D           Bm
Sniegu apēst
   F#m
Kā konfekti.

(1)
Caur blāvu virtuves logu
Rīta saule laužas iekšā
(2)
Kā ostā atgriežas kuģi
Tā es atgriežos tavā priekšā
(1)
Un kā reiz rakstīja dzejnieks
Tādas lielas laimes jau nav
(2)
Ir tikai mazas laimītes
Un tagad kopā mums ir katram sava

D          Bm
Kad paliek auksti
         F#m
Es gribu ziemu apēst
D           Bm
Sniegu apēst
   F#m
Kā konfekti.

D          Bm
Kad paliek auksti
         F#m
Es gribu ziemu apēst
D           Bm
Sniegu apēst
   F#m
Kā konfekti.

Starpspēle: D Bm F#m  D Bm F#m
            D Bm F#m  D Bm F#m

(1)
Man pieder debesu gabaliņš
Tur starp Enguri un Roju
(2)
Kuru ikvakaru rietos,
Caur logu samīļoju
(1)
Un reizēm slīkstu asarās
Tās birst kā no sieka
(2*)
Es vienkāršu raudu,
Raudu no prieka.

D          Bm
Kad paliek auksti
         F#m
Es gribu ziemu apēst
D           Bm
Sniegu apēst
   F#m
Kā konfekti.

D          Bm
Kad paliek auksti
         F#m
Es gribu ziemu apēst
D           Bm
Sniegu apēst
   F#m
Kā konfekti.

Outro: D Bm F#m...

Veidoja: AA