Draugs

Tumsa

Izpildītājs:
Tumsa
Nosaukums:
Draugs
Dalīties:
Seko jaunumiem:
Intro: | C G Am | F G | 2x

C      G          Am   F (G)
  Ēnās pazūd mūsu soļi
C      G              Am    F (G)
  Domu skaļums neļauj norimt
C       G           Am   F (G)
  Un pa svaigu zaļu zāli
C           G       Am
  Aizliegts staigāt šovakar

F        (G)  C      G Am
  Tu esi mans draugs
F        (G)  C      G Am
  Tu esi mans draugs
F        (G)  C
  Tu esi mans draugs

        G            Am    F (G)
  Ielās aizskan mūsu vārdi
C       G          Am    F (G)
  Lejup lido putnu sapņi
C       G          Am   F (G)
  Un pa iestaigāto ceļu
C         G             Am
  Klusiem soļiem aiziet kāds

F        (G)  C      G Am
  Tu esi mans draugs
F        (G)  C      G Am
  Tu esi mans draugs
F        (G)  C      G Am
  Tu esi mans draugs
F        (G)  C      G Am F (G)
  Tu esi mans draugs

C        G          Am     F (G)
  Lietus spēlз logā bailes
C       G         Am    F (G)
  Ielās dejo samirkušie
C             G            Am   F (G)
  Vējš cenšas noķert kokos vēju
C        G           Am
  Es vēl tevi gaidīt spēju


F        (G)  C      G Am
  Tu esi mans draugs
F        (G)  C      G Am
  Tu esi mans draugs
F        (G)  C      G Am
  Tu esi mans draugs
F        (G)  C      G Am F
  Tu esi mans draugs

  (G)  C
  mans draugs
G      Am
  mans draugs

  F      (G)  C
  Tu esi mans draugs..

- --

Akordus var spēlēt arī fingerpicking stilā. Tas ir viens piemērs.

    C                      G                         Am
E:-----------0-----------|--------3----------------|-----------0-----------|
B:--------------1--------|-----------0-------0-----|--------------1--------|
G:-----------------0-----|----------------0-----0--|-----------------2-----|
D:--------------------2--|-----0-------------------|--------------------2--|
A:--3--------------------|-------------------------|--0--------------------|
E:-----------------------|--3----------------------|-----------------------|


  F           G5
--------------------------|
-----------1-----------3--|
--------2-----------4-----|
-----3-----------5--------|
--3-----------------------|
--------------3-----------|

- --

C  G  G5 Am F 
0--3--3--0--1--
1--0--3--1--1--
0--0--4--2--2--
2--0--5--2--3--
3--2--5--0--3--
0--3--3--0--1--