Vairogi 2

Līvi

Izpildītājs:
Līvi
Mūzikas autors:
Juris Pavītols
Vārdu autors:
Vitauts Ļūdēns
Nosaukums:
Vairogi 2
Dalīties:
Seko jaunumiem:
D akords pantā:
e|--2--2-2-2--2-2-2-3---3-3-3--2-2-2--0-0-2-|
B|--3--3-3-3--3-3-3-3---3-3-3--3-3-3--3-3-3-| Atkārtot
G|--2--3-3-3--3-3-3-3---2-2-2--2-2-2--2-2-2-|
A|--0--0-0-0--0-0-0-0---0-0-0--0-0-0--0-0-0-|

#1 Galvenā frāze:
A|--5--5-5-5--5-5-5--5-5-----5---| Atkārtot
E|-----------------------5-7---7-|

#2 Tieši pirms piedziedājuma:
A|--5--5-5-5--5-5-5--5-5-----5-4-2~-|
E|-----------------------5-7--------|

#3 Piedziedājumos
A|------5-4-2~-|
E|--5-7--------|

#4 Pirms 2. panta
A|------5---|
E|--5-7---7-|


(Frāze #1)
D
Mūsu dziesmas ir vairogi seni
Mēs tās par pagalvjiem liksim
Daudzu likteņu pilni mēs elposim
Kā pakalni Daugavas krastos
Mums acis būs vaļā
Un neviens nespēs mūs pārsteigt
Un Daugavas gultni aizbērt
Ar mūsu miesām un kauliem
(Frāze #2)


Bm          F#m   G       A       D      (Frāze #3)
Ir latviešu tauta akmens, māls un smilts
Bm                F#m
Kuri šais krastos augšup kāpa
G   A           F#m
Lai lejā varētu Daugava plūst
G                A
Mūsu dziesmas ir vairogi seni
F              A
Ja mēs tās par pagalvjiem liksim


(Frāze#4, uzreiz pēc #1)
D
Ne sapnī, ne mūžos neaizmigsim.
(Frāze #2)


Bm          F#m   G       A       D      (Frāze #3)
Ir latviešu tauta akmens, māls un smilts
Bm          F#m   G       A       D      (Frāze #3)
Ir latviešu tauta akmens, māls un smilts
Bm          F#m   G       A       D      (Frāze #3)
Būs latviešu tauta akmens, māls un smilts
Bm          F#m   G       A       D      (Frāze #3)
Būs latviešu tauta akmens, māls un smilts


(Frāze #1)
Beigt uz D