Divi enģeļi [TAB]

Putnu balle

Izpildītājs:
Putnu balle
Mūzikas autors:
Mārtiņš Freimanis
Vārdu autors:
Mārtiņš Freimanis
Nosaukums:
Divi enģeļi [TAB]
Dalīties:
Seko jaunumiem:
Ievads
  D     A     Bm              D       A     D
e-2-----0-----2---------------2-----------------------
b---3-----1-----3---------------3-----2-----3---------
g-----0-----1-----4-------4-------0-----2-----2-------
d-0-------------------4-----4-0-----0-----2-----0---0-
a-------0-----2-----2---2-------------------0-----0---
e-----------------------------------------------------

Pants:

  Divi eņģeļi sēž
E:-2-2-5-5-7-2-
B:-------------
  Jumta korē un dzied
E:-----------2-
B:-3-3-3-5-3---
  Katram nomet pa dāvanai...
E:-2-2-5-5-7-------
B:-----------7-5-3-
  Katram kas garām iet.
E:-7-7--7-7-5-3-
B:--------------
  Bet to nedzird neviens
E:-2-2-5-5-7-2-
B:-------------
  Un to neredz neviens...
E:-----------2-
B:-3-3-3-5-3---
  Un eņģeļi smej-
E:-2-7-9-5-7-
B:-----------
  Kā gan var prieks
E:-7-9-7-2-
B:---------
  Būt kaut kas lieks
E:-------5-
B:-5-5-3---

Piedz:

  Zini-varbūt mums jālido prom
E:-10-10--10-10-9--10--------
B:--------------------10-8-7-
  Šeit katram jau tā ir tik daudz.
E:---7-7--7-9-7-10-
B:-7---------------
  Dzirdi-kaut kur kāds bārenis raud
E:-10--10-10-10-12-14-12-10-5-
B:----------------------------
  Un laimīti atpakaļ sauc.
E:-5-9--7--5-7-9-10-12-
B:---------------------

Pants:
  Divi eņģeļi sēž
E:-2-2-5-5-7-2-
B:-------------
  Jumta korē un dzied
E:-----------2-
B:-3-3-3-5-3---
  Katram novēl lai izdodas
E:-2-2-5-5-7-------
B:-----------7-5-3-
  Katram kas garām iet...
E:--------------
B:-7-7--7-7-5-3-
  Bet to nedzird neviens
E:-2-2-5-5-7-2-
B:-------------
  Un to neredz neviens...
E:-----------2-
B:-3-3-3-5-3---
  Un eņģeļi smej-
E:-2-7-9-5-7-
B:-----------
  Vēl taču gaišs
E:-7-9-7-2-
B:---------
  Kas tiem kaiš?
E:-------5-
B:-5-5-3---

Piedz: 2x
  Zini-varbūt mums jālido prom
E:-10-10--10-10-9--10--------
B:--------------------10-8-7-
  Šeit katram jau tā ir tik daudz.
E:---7-7--7-9-7-10-
B:-7---------------
  Dzirdi-kaut kur kāds bārenis raud
E:-10--10-10-10-12-14-12-10-5-
B:----------------------------
  Un laimīti atpakaļ sauc.
E:-5-9--7--5-7-9-10-12-
B:---------------------

Pants:
  Divi eņģeļi sēž
E:-2-2-5-5-7-2-
B:-------------
  Jumta korē un dzied
E:-----------2-
B:-3-3-3-5-3---
Un tev nestāsta, ka
E:-2-2-5-5-7-2-
B:-------------
  Viņiem nav vairs kur iet..
E:-----------2-
B:-3-3-3-5-3---
  Divi eņģeļi sēž
E:-2-2-5-5-7-2-
B:-------------
  Jumta korē un dzied
E:-----------2-
B:-3-3-3-5-3---
  Vakar pusnaktī tiem,
E:-2-2-5-5-7--2-
B:---------------
  Spārnus salauzis vējš!!
E:-------------
B:-3-3-3-5-2-3-