Dienas nakts sakari

Instrumenti

Izpildītājs:
Instrumenti
Nosaukums:
Dienas nakts sakari
Dalīties:
Seko jaunumiem:
Aptuveni spēlējams:
e|--------------------------------------------------------------------|
B|--------------------------------------------------------------------|
G|--------------------------------------------------------------------|
D|-1-1--1-1--1-1--1-1--1-1--1-1--4-4--4-4--4-4--4-4--4-4--4-4--4-0----|
A|-2-2--2-2--2-2--2-2--2-2--2-2--2-2--2-2--2-2--2-2--2-2--2-2--2-2----|
E|--------------------------------------------------------------------|


e|----------------------------------------------------------------------|
B|----------------------------------------------------------------------|
G|----------------------------------------------------------------------|
D|-0-0--0-0--0-0--0-0--0-0--0-0--2-2--2-2--2-2--2-2---------------------|
A|-2-2--2-2--2-2--2-2--2-2--2-2--2-2--2-2--2-2--2-2---------------------|
E|----------------------------------------------------------------------|
Atk. Pēc vajadzības

(Tēma)
Uz proscēnija maliņas tauriņu ēnā divu čellu stīgas 
silda dienā drēgnā
B  D   G   A
(Tēmas x21xxx daļa)
Gaismas kūļa puteklis katarsē kvēlā
Pa apziņu klaiņo dzēšlapā vēlā
B   D     G     A


(Klusi, akordi var variēt)
A       D        D        Em A  A         G     D  A       
Tuvu sirdij, bet tālu no Rīgas aizkavējušās aiznākamības,
A       G             Em     A    A    G    A     Em    D
iekšpus gaidošas, bet atturīgas, satikās divas vientulības.

(Kārtīgie akordi)
D      G         G#     A       C#m     Bm          A
Tuvu sirdij, bet tālu no Rīgas aizkavējušās aiznākamības,
D       G             Em     A       G     F#   G       D
iekšpus gaidošas, bet atturīgas, satikās divas vientulības.

(Sākuma tēma)
Dienas nakts sakari
Saullēktā pulss lēkā
Pa apziņu klaiņo dzēšlapā vēlā


Tuvu sirdij, bet tālu no Rīgas aizkavējušās 
aiznākamības, iekšpus gaidošas, bet atturīgas,
satikās divas vientulības,

Tuvu sirdij, bet tālu no Rīgas aizkavējušās 
aiznākamības, iekšpus gaidošas, bet atturīgas,
satikās divas vientulības,

Satikās divas vientulības,
Divas vientulības x2

(Pabeigt ar x2020x)