Satiksimies, tiksimies

Astro'n'out

Izpildītājs:
Astro'n'out
Mūzikas autors:
Astro'n'out
DJ Rudd
Vārdu autors:
Māra Upmane - Holšteine
Nosaukums:
Satiksimies, tiksimies
Dalīties:
Seko jaunumiem:
BASS TAB Visu dziesmu uz riņķi var laist
E |-----------------------------------------------------------------||
B |-----------------------------------------------------------------||
G |--------------------------------4-4------------------------------||
D |-------2-2---------4-4------------------------5-5----------------||
A |-------------------------2-2-2-----------------------------------||
E |-0-0-0------2-2-2---------------------3-3-3----------------------||

SOLO GUIT. Sākumā
E |---7-7-7--5-5------7-7-7--5-5-----7-7-7-7---10-10--12-12-12--10-10--7------||
B |---------------7---------------7-------------------------------------------||
G |---------------------------------------------------------------------------||
D |---------------------------------------------------------------------------||
A |---------------------------------------------------------------------------||
E |---------------------------------------------------------------------------||


SATIKSIMIES, TIKSIMIES

           Em                F#m
Nemainās nekas, tik acu skatienā
                     Bm             G
Cits dziļums jūtams, un man jābrīnās:
              Em                    F#m
Pa kuŗu laiku mēs... jau svešās pasaulēs?
                Bm                G
Kâ gadi pāršķiŗ lapas mūsu dzīvēs
 
Em    F#m         Bm      G
Atceries tu mani, kad zūd miers
Em    F#m         Bm    G
Atceries tu mani, atceries

Piedz. 2x
Em                F#m
Satiksimies, tiksimies
           Bm         G
Pašā augstākajā galotnē

                 Em               F#m
Nē, nemainās nekas, tik acu skatienā
                     Bm             G
Cits dziļums jūtams, un man jābrīnās:
                Em                     F#m
Pa kuŗu laiku mēs..? Jau klusums klausulē.
              Bm             G
Kâ vārdi neko nespēj atbildēt
Em    F#m         Bm      G
Atceries tu mani, kad zūd miers
Em    F#m         Bm    G
Atceries tu mani, atceries

Piedz. 2x
Em                F#m
Satiksimies, tiksimies
           Bm         G
Pašā augstākajā galotnē