Akmentiņi [TAB]

Carnival Youth

Izpildītājs:
Carnival Youth
Mūzikas autors:
Carnival Youth
Carnival Youth
Vārdu autors:
Imants Ziedonis
Birkas:
tab
Nosaukums:
Akmentiņi [TAB]
Dalīties:
Seko jaunumiem:
   Solo vieglāk izpildīt ar kapodasteru uz ceturtās ladas.
   Solo nemainās visas dziesmas garumā.     
 
E:-4---4---4---4---4---4---4---4---4---4---4---4---4---4---4---4--
B:---5---5---5---5---5---5---5---5---5---5---5---5---5---5---5---5
G:----------------------------------------------------------------
D:-----------------7-----------7----------------------------------
A:---------------------------------7-----------7---7-----------7--
E:----------------------------------------------------------------

         
E:-4---4---4---4---4---4---4---4---4---4---4---4---4---4---4---4--
B:---5---5---5---5---5---5---5---5---5---5---5---5---5---5---5---5
G:----------------------------------------------------------------
D:-7-----------7---------------7----------------------------------
A:---------------------------------7-----------7---7-----------7--
E:----------------------------------------------------------------

             
E:-4---4---4---4---4---4---4---4---4---4---4---4---4---4---4---4--
B:---5---5---5---5---5---5---5---5---5---5---5---5---5---5---5---5
G:----------------------------------------------------------------
D:-6-------6---6-----------------------------------4--------------
A:-----------------6-------6---6---7-----------7-----------7---6--
E:----------------------------------------------------------------
          
E:-4---4---4---4---4---4---4---4---4---4---4---4---4---4---4---4--
B:---5---5---5---5---5---5---5---5---5---5---5---5---5---5---5---5
G:----------------------------------------------------------------
D:-6-------6---6-----------------------------------4--------------
A:-----------------6-------6---6---7-----------7-----------7------
E:----------------------------------------------------------------

Pievienoja- Fjuu