Par to zēnu kas sit skārda bungas (solo tab)

Prāta Vētra/Brainstorm

Izpildītājs:
Prāta Vētra/Brainstorm
Nosaukums:
Par to zēnu kas sit skārda bungas (solo tab)
Dalīties:
Seko jaunumiem:
(/) Slide Up  (\) Slide Down  (h) Hammer On  (p) Pull Off  (b) Bend (r) Release (v) Vibrato

Par to zēnu, kas sit skārda bungas

E|--------------------------------------------------------------------------------
B|---------------------------------------------13v---------13------15--13---------
G|--12--14--12v-----12--14--12v--------12--14----------14------14----------14-----
D|--------------------------------------------------------------------------------
A|--------------------------------------------------------------------------------
E|--------------------------------------------------------------------------------



E|---------------------------------------------------12------13--15--13/------
B|------------------------------------------13v--13------13-------------------
G|--12--14--12v-----12--14--12v-----12--14------------------------------------
D|----------------------------------------------------------------------------
A|----------------------------------------------------------------------------
E|----------------------------------------------------------------------------