Spogulīt 2

Prāta Vētra/Brainstorm

Izpildītājs:
Prāta Vētra/Brainstorm
Nosaukums:
Spogulīt 2
Dalīties:
Seko jaunumiem:
Intro:

D Bm

e:--2--0-2--5--------------------------|
B:---------------2-3-------------------|  2x
G:-------------------------------------|

D                             Bm
Spogulīt, spogulīt ..saki man tā,

D                              Bm 
Kura visā pasaulē ir visskaistākā? 

Un viņš teica: 

G            A      D            Dm
"Nav nozīmes meklēt paradīzē vai peklē,

            D                      Bm 
Bet ja reiz satiksi to, sauksi par savējo.


" Spogulīt, spogulīt ..saki man tā, 
Kura visā pasaulē ir vismīïākā? 

Un viņš teica: 
"Nav nozīmes meklēt paradīzē vai peklē, 
Bet ja reiz satiksi to, sauksi par savējo."

G                               Bm
"Viņa būs līdzās, kad viss kārtībā,

G                              Bm 
Viņa būs līdzās, kad Tev nav nekā,

G                   D 
Viņa būs Tava, Tavējā!" 


D                               Bm
Spogulīt, spogulīt, nāc man palīgā! 

D                      Bm
Kura ir tā īstā, vienīgā? 

Un viņš teica: 
"Nav nozīmes meklēt paradīzē vai peklē, 
Bet ja reiz satiksi to, sauksi par savējo." 

"Nav nozīmes meklēt paradīzē vai peklē, 
Bet ja reiz satiksi to, sauksi par savējo." 

"Nav nozīmes meklēt paradīzē vai peklē, 
Bet ja reiz satiksi to, sauksi par savējo, 
Par savējo, 
Par savējo, 
Par savējo...

===================================================================

Lai izklausiitos labaak, D var speeleet progresijaa (paraadiits zemaak), un Bm ik pa retam nomainiit pret Bsus2 (224422)


D          Bm 
--2-0-5-0--2--(2)--
--3-3-3-2--3--(2)--
--2-2-2-2--4--(4)--
--0-0-0-0--4--(4)--
-----------2--(2)--
-----------2--(2)--

- --

Akordi

   D   Bm  Bm(add)  G   A
e--2---2---10-------3---0-
B--3---3---7--------3---2-
G--2---4---7--------0---2-
D--0---4---9--------0---2-
A--0---2---9--------2---0-
E--0---2---7--------3-----