Fly Away [TAB]

Ģenerālplāns

Izpildītājs:
Ģenerālplāns
Birkas:
tab eng
Nosaukums:
Fly Away [TAB]
Dalīties:
Seko jaunumiem:
Pants/ievads
_____________________
G    G/F#    Em    C
_____________________
Piedz

________________________
A    C    G   G/F#   Em
________________________

Solo

Track 1
                                                            W      
      Q      Q      Q    E   E   E    E   E    E   E    E   Q      
E||---------------------------------------------------------------|
B||--15-----15----------------------------------------------------|
G||--12b----12b----12--------------------12h------12h--14--14~----|
D||-------------------------14--12h--14-------14------------------|
A||---------------------------------------------------------------|
E||---------------------------------------------------------------|


   E    E   E    E   E    E   E    E   E    E   Q      H          
-----------------------------------------------------------------|
-----------------------------------------------------------------|
-----------------------------12h------12h--14--14b----14~--------|
-----------12h------12h--14-------14-----------------------------|
--12h--14-------14-----------------------------------------------|
-----------------------------------------------------------------|


   Q     E   E   E   Q     E   E   E   E   E   E    Q     E   
-------------------------------------------------------------|
-------------------------------------------------------------|
----------------12----------------12------12--14~--14~-------|
--14~-------14------14~-------14------14---------------------|
-------------------------------------------------------------|
-------------------------------------------------------------|


    E   E   E   Q     E    Q     Q      E   E    Q    Q            
-----------------------------------------------------------|-----||
-------17--------------------------------------------------|-----||
--16------16--14----12h--------12h--------12h-------------|-----||
--------------------------14-----------14-------14---------|-----||
-----------------------------------------------------------|-----||
-----------------------------------------------------------|-----||




Duration Legend
---------------
W - whole
H - half
Q - quarter
E - 8th
S - 16th
T - 32nd
X - 64th
. - note dotted
|-n-|  - n-tuplets


Tablature Legend
----------------
L - tied note
x - dead note
g - grace note
(n) - ghost note
> - accentuded note
NH - natural harmonic
AH - artificial harmonic
TH - tapped harmonic
SH - semi harmonic
PH - pitch harmonic
h - hammer on
p - pull off
b - bend
br - bendRelease
pb - preBend
pbr - preBendRelease
brb - bendReleaseBend

/ - tremolo bar dip

 - tremolo bar dive
-/n - tremolo bar Release up
/n - tremolo bar inverted dip
/n - tremolo bar return
-
 - tremolo bar Release down
S - shift slide
s - legato slide
/ -  slide into from below or out of upwards
 -  slide into from above or out of downwards
~ - vibrato
W - wide vibrato
tr - trill
TP - tremolo picking
T - tapping
S - slap
P - pop
< - fade in
^ - brush up
v - brush down