Dzimtā Valoda [TAB]

Līvi

Izpildītājs:
Līvi
Mūzikas autors:
Ainars Virga
Vārdu autors:
Imants Ziedonis
Grigore Vieru
Birkas:
tab guitar pro
Nosaukums:
Dzimtā Valoda [TAB]
Dalīties:
Seko jaunumiem:
Ģitāra
E||----------------------------|----------------------------|
B||--------4-----------6p-4----|--------4-----------6p-4----|
G||----------------------------|----------------------------|
D||-----5-----5-----5-------5--|-----5-----5-----5-------5--|
A||--3-----------3-------------|--3-----------3-------------|
E||----------------------------|----------------------------|


----------------------------|----------------------------|
--------4-----------6p-4----|--------4-----------6p-4----|
----------------------------|----------------------------|
-----5-----5-----5-------5--|-----5-----5-----5-------5--|
--3-----------3-------------|--3-----------3-------------|
----------------------------|----------------------------|

  
--------------------------|--------------------------|
--------4-----------4-----|--------4-----------4-----|
--------------------------|--------------------------|
-----5-----5-----5-----5--|-----5-----5-----5-----5--|
--3-----------3-----------|--3-----------3-----------|
--------------------------|--------------------------|
   
--------2-----------2-----|--------2------------3----|
--------------------------|-------------------3------|
-----2-----2-----2-----2--|-----2-----2--------------|
--0-----------0-----------|--0--------------3--------|
--------------------------|--------------------------|
--------------------------|--------------3-----------|

 
--------------------------|--------------------------|
--------4-----------4-----|--------4-----------4-----|
--------------------------|--------------------------|
-----5-----5-----5-----5--|-----5-----5-----5-----5--|
--3-----------3-----------|--3-----------3-----------|
--------------------------|--------------------------|

                                                       Piedz.
--------2-----------2-----|--------2------------3----|----------------------|
--------------------------|-------------------3------|----------------------|
-----2-----2-----2-----2--|-----2-----2--------------|--5------5------------|
--0-----------0-----------|--0--------------3--------|--5------5--6------6--|
--------------------------|--------------------------|--3------3--6------6--|
--------------------------|--------------3-----------|------------4------4--|


----------------------|----------------------|----------------------|
----------------------|----------------------|----------------------|
--8------8--6------6--|--5------5------------|--8------8--6------6--|
--8------8--6------6--|--5------5--6------6--|--8------8--6------6--|
--6------6--4------4--|--3------3--6------6--|--6------6--4------4--|
----------------------|------------4------4--|----------------------|


----------------------|----------------------|-----------------------|
----------------------|----------------------|--------------3--------|
--5------5------------|--8------8--6------6--|--0--0--1--0-----------|
--5------5--6------6--|--8------8--6------6--|-----------------------|
--3------3--6------6--|--6------6--4------4--|-----------------------|
------------4------4--|----------------------|-----------------------|


------------------------|-----------|----------------------------|
--------------6----4----|--3--------|--------4-----------6p-4----|
--0--0--1--0------------|-----------|----------------------------|
------------------------|-----------|-----5-----5-----5-------5--|
------------------------|-----------|--3-----------3-------------|
------------------------|-----------|----------------------------|

 
----------------------------|--------------------------|
--------4-----------6p-4----|--------4-----------4-----|
----------------------------|--------------------------|
-----5-----5-----5-------5--|-----5-----5-----5-----5--|
--3-----------3-------------|--3-----------3-----------|
----------------------------|--------------------------|


--------------------------|--------2-----------2-----|
--------4-----------4-----|--------------------------|
--------------------------|-----2-----2-----2-----2--|
-----5-----5-----5-----5--|--0-----------0-----------|
--3-----------3-----------|--------------------------|
--------------------------|--------------------------|


 
--------2------------3----|--------------------------|
-------------------3------|--------4-----------4-----|
-----2-----2--------------|--------------------------|
--0--------------3--------|-----5-----5-----5-----5--|
--------------------------|--3-----------3-----------|
--------------3-----------|--------------------------|

--------------------------|--------2-----------2-----|
--------4-----------4-----|--------------------------|
--------------------------|-----2-----2-----2-----2--|
-----5-----5-----5-----5--|--0-----------0-----------|
--3-----------3-----------|--------------------------|
--------------------------|--------------------------|
                           Piedz.
--------2------------3----|----------------------|----------------------|
-------------------3------|----------------------|----------------------|
-----2-----2--------------|--5------5------------|--8------8--6------6--|
--0--------------3--------|--5------5--6------6--|--8------8--6------6--|
--------------------------|--3------3--6------6--|--6------6--4------4--|
--------------3-----------|------------4------4--|----------------------|


----------------------|----------------------|----------------------|
----------------------|----------------------|----------------------|
--5------5------------|--8------8--6------6--|--5------5------------|
--5------5--6------6--|--8------8--6------6--|--5------5--6------6--|
--3------3--6------6--|--6------6--4------4--|--3------3--6------6--|
------------4------4--|----------------------|------------4------4--|


  
----------------------|-----------------------|------------------------|
----------------------|--------------3--------|--------------6----4----|
--8------8--6------6--|--0--0--1--0-----------|--0--0--1--0------------|
--8------8--6------6--|-----------------------|------------------------|
--6------6--4------4--|-----------------------|------------------------|
----------------------|-----------------------|------------------------|

Solo

-----------|-------------------------|-----------------------------------|
--3--------|-------------------------|-----------------------------------|
-----------|-------------------------|--7b--7pb-7pb-7pbr---5-------------|
-----------|--3b------3-1-3b------5--|-----------------------5----5--3---|
-----------|-------------------------|---------------------------------6-|
-----------|-------------------------|-----------------------------------|

     
-------------------------|-----------------------|
-------------------------|-----------------------|
-------------------------|-----------------------|
--4------x-5-7---5-4-----|--------------5-5------|
-----------------------6-|--5------3--2----------|
-------------------------|-----------------------|


------------------------------|------------------3----------------|
-----------------------4--x-x-|--3br---1-3br---1----4--3-1--3s-4s-|
---------------------5--------|-----------------------------------|
--5br----------5br------------|-----------------------------------|
--------6-3-------------------|-----------------------------------|
------------------------------|-----------------------------------|


     
------------------------|------------------15--------|
--3----7----10------10--|--15--15--16--15------------|
------------------------|----------------------------|
------------------------|----------------------------|
------------------------|----------------------------|
------------------------|----------------------------|


--15-15-15-15-15-15-15-15-15-15-15-15-15-15-15-15-15-15-15-15-15-15-15-15-13-15-
--------------------------------------------------------------------------------
--------------------------------------------------------------------------------
--------------------------------------------------------------------------------
--------------------------------------------------------------------------------
--------------------------------------------------------------------------------


--18---16-15-16-18-16-15----15-16-18-16-15-16-15-------|
-------------------------18----------------------18-20-|
-------------------------------------------------------|
-------------------------------------------------------|
-------------------------------------------------------|
-------------------------------------------------------|

     
----------------------------------------|-------------------15-----------|
--18-18b---16----16-15------------------|----------------16----18--------|
--------------17-------15-17------15----|-------------15-----------------|
-------------------------------------17-|--13---15-17--------------------|
----------------------------------------|--------------------------------|
----------------------------------------|--------------------------------|


   
------------------------|---------------------------|-----------------------|
------------------------|---------------------------|--------------3--------|
---------------3--------|--3br---3br----------------|--0--0--1--0-----------|
-------------------6----|--------------5--3------3--|-----------------------|
--3------3-5-6----------|---------------------------|-----------------------|
------------------------|---------------------------|-----------------------|


------------------------|-----------|----------------------|
--------------6----4----|--3--------|----------------------|
--0--0--1--0------------|-----------|--5------5------------|
------------------------|-----------|--5------5--6------6--|
------------------------|-----------|--3------3--6------6--|
------------------------|-----------|------------4------4--|


----------------------|----------------------|----------------------|
----------------------|----------------------|----------------------|
--8------8--6------6--|--5------5------------|--8------8--6------6--|
--8------8--6------6--|--5------5--6------6--|--8------8--6------6--|
--6------6--4------4--|--3------3--6------6--|--6------6--4------4--|
----------------------|------------4------4--|----------------------|


      
----------------------|----------------------|-----------------------|
----------------------|----------------------|--------------3--------|
--5------5------------|--8------8--6------6--|--0--0--1--0-----------|
--5------5--6------6--|--8------8--6------6--|-----------------------|
--3------3--6------6--|--6------6--4------4--|-----------------------|
------------4------4--|----------------------|-----------------------|

------------------------|-----------|----------------------|
--------------6----4----|--3--------|----------------------|
--0--0--1--0------------|-----------|--5------5------------|
------------------------|-----------|--5------5--6------6--|
------------------------|-----------|--3------3--6------6--|
------------------------|-----------|------------4------4--|
  
----------------------|----------------------|----------------------|
----------------------|----------------------|----------------------|
--8------8--6------6--|--5------5------------|--8------8--6------6--|
--8------8--6------6--|--5------5--6------6--|--8------8--6------6--|
--6------6--4------4--|--3------3--6------6--|--6------6--4------4--|
----------------------|------------4------4--|----------------------|


     
----------------------|----------------------|-----------------------|
----------------------|----------------------|--------------3--------|
--5------5------------|--8------8--6------6--|--0--0--1--0-----------|
--5------5--6------6--|--8------8--6------6--|-----------------------|
--3------3--6------6--|--6------6--4------4--|-----------------------|
------------4------4--|----------------------|-----------------------|


    
------------------------|-----------||
--------------6----4----|--3--------||
--0--0--1--0------------|-----------||
------------------------|-----------||
------------------------|-----------||
------------------------|-----------||

Pilnu dziesmas Guitar Pro versiju var lejupielādēt šeit: https://www.akordi.lv/faili/pro/Livi-Dzimta_Valoda.gp5 Guitar Pro tabus veidojis Oskars Kalnins