Deviņvīru Spēks

Līvi

Izpildītājs:
Līvi
Mūzikas autors:
Ēriks Ķiģelis
Vārdu autors:
Olafs Gūtmanis
Nosaukums:
Deviņvīru Spēks
Dalīties:
Seko jaunumiem:
Intro

E||-----------------------|-------------------| 
B||-----------------------|-------------------| 
G||--2--------5--5--4--2--|------2------------| 
D||--2--------5--5--4--2--|------2------------| 
A||-----------------------|-------------------| 
E||-----------------------|-------------------| 


                                  
-----------------------|-------------------------|| 
-----------------------|-------------------------|| 
--0-----------0--4--2--|------2-----------0--1--*|| 
--0--------2--0--4--2--|------2----x-x-2--0--1--*|| 
-----------2-----------|-----------x-x-2---------|| 
-----------------------|-------------------------||


Am 
Starp krustziežiem un tauriņziežiem 
   G                  Am 
no zemes uzšaujos kā grēks. 
Am 
Es esmu pasakains un teiksmains - 
   G               Am 
Es esmu deviņvīru spēks. 
(fonā sāk spēlēt rifu) 
Am 
Es esmu ticējums un mīkla 
   G                  Am 
No zemes atveidotais tēls. 
Am 
Un ja jūs vēlaties viens stublājs 
  G                     Am 
Un tikai puķe - man nav žēl. 


   F           C  G     Am 
Un Deviņgalvis pūķis gaisā, 
    F          G         Am 
Lai nāk kāds varonis un cērt. 
     F               C G   Am 
Man galvas nost - es labi zinu, 
    F          G      Am        
Ko esmu savai tautai vērts. 



(Vienkārši spēlējam rifu. Dotie akordi - vienkāršotā versija) 
Am 
Ja sauc par deviņvīru spēku 
    G               Am 
Nav vajadzības attaisnot 
    Am 
Šo sakni, kas no zemes miesas 
    G                Am 
Tik pamatīgu stiebru dod. 
Am 
Kas izziedēts var stipri ticēt, 
    G                  Am 
Kas garām ies, lai iet, bet zin - 
Am 
Ka deviņvīru spēks šai zemē 
   G              Am 
Ir rada tautas liktenim. 



   F           C  G      Am 
Un Deviņgalvis pūķis gaisā, 
    F          G         Am 
Lai nāk kāds varonis un cērt. 
     F               C G   Am 
Man galvas nost - es labi zinu, 
    F          G      Am        
Ko esmu savai tautai vērts.