Dzelzgriezējs [TAB]

Līvi

Izpildītājs:
Līvi
Birkas:
tab
Nosaukums:
Dzelzgriezējs [TAB]
Dalīties:
Seko jaunumiem:
      Ievads/Piedz.                                                
      
E||---------------------------------|-----------------------------|
B||---------------------------------|-----------------------------|
G||*----------------5----7-------7--|-----------------------------|
D||*--7-------------5----7-------7--|--5-------5--7--x----7S-5--L-|
A||---7-------------3----5-------5--|--5-------5--7--x----7S-5--L-|
E||---5-----------------------------|--3-------3--5--5----5S-3--L-|


                              PM PM PM PM PM PM PM    
   
------------------------|---------------------------||
------------------------|---------------------------||
-------5----7-----7-----|--------------------------*||
--7----5----7-----7--5--|--L--5--5--5--5--5--5--5--*||
--7----3----5-----5--5--|--L--5--5--5--5--5--5--5---||
--5------------------3--|--L--3--3--3--3--3--3--3---||


   Break                                                    
   4x
----------------------------|-----------------------------||
----------------------------|-----------------------------||
*--7------------------------|--7------------9------------*||
*--------10--9--7--------L--|-----10--9--7-----10--9--7--*||
----------------------------|-----------------------------||
----------------------------|-----------------------------||

 3x
-------------------------|-----------------------------||
-------------------------|-----------------------------||
*--7---------------------|--7------------9------------*||
*------x--9--7--------L--|------x--9--7------x--9--7--*||
-------------------------|-----------------------------||
-------------------------|-----------------------------||


    
----------------------------||-------------------------|
----------------------------||-------------------------|
--7------------9------------||*--7---------------------|
------x--9--7-----10--9--7--||*-----10--9--7--------L--|
----------------------------||-------------------------|
----------------------------||-------------------------|



-----------------------------||---10------------------------|
-----------------------------||-------13--12--10---------L--|
--7------------9------------*||*----------------------------|
-----10--9--7-----10--9--7--*||*----------------------------|
-----------------------------||-----------------------------|
-----------------------------||-----------------------------|


    3x
--10--------------12---------------||
------13--12--10------13--12--10---||
----------------------------------*||
----------------------------------*||
-----------------------------------||
-----------------------------------||


   
--15------15h-17p-15h-17p-15h-17p-15h-17p-15h-17p-15h-17p-15h-17S-----|
----------------------------------------------------------------------|
----------------------------------------------------------------------|
----------------------------------------------------------------------|
----------------------------------------------------------------------|
----------------------------------------------------------------------|


                            Piedz.                  
 
----0------------------||--------------------------|
-----------------------||--------------------------|
-----------------------||*---------5----7-------7--|
----2-----------5-5----||*--7------5----7-------7--|
----2-----------5-5----||---7------3----5-------5--|
----0-----------3-3----||---5----------------------|


 
-----------------------------|------------------------|
-----------------------------|------------------------|
-----------------------------|-------5----7-----7-----|
--5-------5--7--x----7S-5--L-|--7----5----7-----7--5--|
--5-------5--7--x----7S-5--L-|--7----3----5-----5--5--|
--3-------3--5--5----5S-3--L-|--5------------------3--|


     PM PM PM PM PM PM PM    
    
---------------------------||
---------------------------||
--------------------------*||
--L--5--5--5--5--5--5--5--*||
--L--5--5--5--5--5--5--5---||
--L--3--3--3--3--3--3--3---||