Drīkst

Dons (Artūrs Šingirejs)

Izpildītājs:
Dons (Artūrs Šingirejs)
Nosaukums:
Drīkst
Dalīties:
Seko jaunumiem:
Intro.
E-------------
B-------------
G---7-7------
D---7-7-7-5-
A---5-5-7-5-
E--------5-3-


Pants.
E-------------------------------------------
B-------------------------------------------
G---7-7-------7-7----------------7-7-----
D---7-7-7-5--7-7-7-5-9-9-7-5-7-7-7-5
A---5-5-7-5--5-5-7-5-9-9-7-5-5-5-7-5
E--------5-3-------5-3-7-7-5-3------5-3


Piedziedājums.
E------------
B------------
G-7----------
D-7-7-9-2-5
A-5-7-9-2-5
E----5-7-0-3 


Forum? ievietoja robomens