Spogulīt, Spogulīt (Live)

Prāta Vētra/Brainstorm

Izpildītājs:
Prāta Vētra/Brainstorm
Nosaukums:
Spogulīt, Spogulīt (Live)
Dalīties:
Seko jaunumiem:
Intro un Starpspēle:
           D           D        A          Bm               Bm

||-2-----0h2-----2--|-----2------0---|-------2-----2--|-------2------2--|

||-----3-----3-----3|-----3------2---|-----3---3-----3|-----3---3------3|

||---2---------2----|---2------2-----|---4-------4----|---4-------4-----|

||-0----------------|-0------2-------|-4--------------|-4---------------|

||------------------|----------------|----------------|-----------------|

||------------------|----------------|----------------|-----------------|

Pants:
           D           D        A          Bm               Bm

||-------2-----2---|-----2------0---|-------2-----2--|-------2------2--|

||-----3---3-----3-|-----3------2---|-----3---3-----3|-----3---3------3|

||---2-------2-----|---2------2-----|---4-------4----|---4-------4-----|

||-0---------------|-0------2-------|-4--------------|-4---------------|

||-----------------|----------------|----------------|-----------------|

||-----------------|----------------|----------------|-----------------|

Piedziedājums:
      G(barre)          A(barre)           Bm             G(barre)

||-------3-----3---|-------5-----5--|-------2-----2--|-------3-----3---|

||-----3---3-----3-|-----5---5-----5|-----3---3-----3|-----3---3-----3-|

||---4-------4-----|---6-------6----|---4-------4----|---4-------4-----|
                                                                         + Panta akordi
||-5---------------|-7--------------|-4--------------|-5---------------|

||-----------------|----------------|----------------|-----------------|

||-----------------|----------------|----------------|-----------------|

Verse:
      G(barre)            

||-------3-----3---|      

||-----3---3-----3-|      

||---4-------4-----|(6x)  + Panta akordi

||-5---------------|      

||-----------------|      

||-----------------|      

No Zefīra (Mālpils)