Klusēšu

Sestā Jūdze

Izpildītājs:
Sestā Jūdze
Nosaukums:
Klusēšu
Dalīties:
Seko jaunumiem:
Ievads

           F#                   B                      C#               
e ----------------------------------------------------------------------
B ----------------------------------------------------------------------
G ---------------6--------------------------------6-\4p3--------3-------
D -------4----\8---8------8-9-8-6-4-6---4------\8--------6-4-\6---6-----
A ---4-6---4--------------------------6-----------------------------4---
E ----------------------------------------------------------------------

        F#               C#
e ------------------------------
B ------------------------------
G ------------------------------
D ------------------------------
A ---2h4p2-1----------------4---
E -----------4-2------2-2-4-----


1. Pants
[F#] Es klusēju, un klusējot viss [C#] nozied,
[F#] Tāpat kā lapas, kurās salna [C#] kož
Bet tās ir [B] spītīgas un gaida jaunu [F#] dienu
Un savus [B] uzvalkus ik brīdi košāk [C#] poš

2. Pants
Es klusēju vai teicot mīļus vārdus
Kas tavām slāpēm veldzējumu dos
Bet neatdarot apsolītos vārtus
Tev vairāk nesāpēs kā klusēšanas sods.

Piedz.
[F#] Es klusēšu, [B] es klusēšu, [C#] es klusēšu [F#] [C#]
[F#] Es klusēšu un runāšu vien [C#] brīžos,
Kad dvēsele to manai sirdij [F#] liks. [C#]

Solo (2x F# B C# F#)

3. Pants
[F#] Es klusēju tu domā nemiers [G#m] zudis
[F#] Varbūt tas tiešām pārāk dziļi [C#] mīt
Es protams [B] izvēlos man viena sirds tik [F#] krūtīs
Vai vari [G#m] vairākas man [C#] apsolīt.

Piedz.

*********************************************************
Dziesmas vārdi no www.sestajudze.lv
Kaspars Tenters