Rabarberu Vīns

Sestā Jūdze

Izpildītājs:
Sestā Jūdze
Nosaukums:
Rabarberu Vīns
Dalīties:
Seko jaunumiem:
Ievads

         C                                  F
e ------------------------------------------------
B ------------------------------------------------
G ------------------------------------------------
D ------------------------------------------------
A -----1-0-----------1-0--------------------------
E ---3-----3-1-3---3-----3-1-3---1-1-3-1-\5-3-1---

         C                                  F
e ------------------------------------------------
B ------------------------------------------------
G ------------------------------------------------
D ------------------------------------------------
A -----1-0-----------1-0-1-3----------------------
E ---3-----3-1-3---3---------3---1-1-3-1-\5-3-1---

Solo

         C                                  F
e ------------------------------------------------
B ------------------------------------------------
G ------------------------------------------------
D ------------------------------------------------
A -----1-0-----------1-0--------------------------
E ---3-----3-1-3---3-----3-1-3---1-1-3-1-\5-3-1---

         C                                  F
e ------------------------------------------------
B ------------------------------------------------
G ------------------------------------------------
D ------------------------------------------------
A -----1-0-----------1-0-1-3----------------3-----
E ---3-----3-1-3---3---------3---1-1-3-1-\5---5---

         F                 Bb       Gm
e ------------------------------------------------
B ------------------------------------------------
G ------------------------------------------------
D ------------------------------------------------
A ---0-1-3--3-3-3-\5-3-1-0---------0-1------------
E -------------------------3---3-3----------------

         C                                  F
e ----------------------------------------------------
B ----------------------------------------------------
G ----------------------------------------------------
D ----------------------------------------------------
A -----1-0-----------1-0-1-3----------------3---1-3---
E ---3-----3-1-3---3---------3---1-1-3-1-\5---5-------


1. Pants
[F] Panāc klusām krēslas stundai pretī
Lai var [C] sniegs uz tavas pieres [F] kust
[Bb] Un lai [F] mulsums paliek skvērā sēdēt
Vēja skūpstus [C] tavos matos [F] siet 

[F] Un [C] nebūt nav untums ka es glāstu
Vakaru un sniegu pierei [F] nost
[Bb] Zini [F] taču ka es ciemos nākšu
Cetrocīgi [C] spēlēt [F] klavieres

Piedz.
[F] Tad es [C] teikšu sen zināmus vārdus
Nozagtus no kino [F] afišas
[Bb] Dves uz [F] manām lūpām savu elpu
Un par [C] spilveniem ņem mākoņus [F]

2. Pants
Vēl tāpat uz galda rozes plēnēs
Man būs līdzi rabarberu vīns
Un varbūt ka čakla skudra atnāks
Atnest satraukumu, kurš nav lieks

Piedz.

Solo

3. Pants
Vēl tāpat uz galda rozes plēnēs
Man būs līdzi rabarberu vīns
Un varbūt ka čakla skudra atnāks
Atnest satraukumu, kurš nav lieks

Piedz.
Un nebūt nav untums ka es glāstu
Vakaru un sniegu pierei nost
Zini taču ka es ciemos nākšu
Cetrocīgi spēlēt klavieres. 

Zini taču ka es ciemos nākšu
Cetrocīgi spēlēt klavieres. 

*********************************************************
Dziesmas vārdi no www.sestajudze.lv
Kaspars Tenters