Kalniem pāri

The Sound Poets

Izpildītājs:
The Sound Poets
Mūzikas autors:
Jānis Aišpurs
Vārdu autors:
Jānis Aišpurs
Nosaukums:
Kalniem pāri
Dalīties:
Seko jaunumiem:
Priekšvārds: Oriģinālā The Sound Poets šo skaisto dziesmu spēlē uz Re (D) skaņojuma, un uz attiecīgi              
             pārskaņotās akustiskās ģitāras, šī būs vienkāršāka versija uz Mi (E)

Ievads: tabulā izskatās aptuveni šādi pievērst uzmanību akcentiem
Akords: E/G#; tā vietā var spēlēt arī vienkārši E
E||---4---|
B||---5---|
G||---4---|
D||---x---|
A||---x---|
E||---4---|


     
E||--0----0-0-0--0----0-0-0-0-|--0----0-0-0--0----0-0-0-0-|
B||--0----0-0-0--0----0-0-0-0-|--0----0-0-0--0----0-0-0-0-|
G||--9----9-9-9--9----9-9-9-9-|--8----8-8-8--8----8-8-8-8-|
D||--9----9-9-9--9----9-9-9-9-|--9----9-9-9--9----9-9-9-9-|
A||--7----7-7-7--7----7-7-7-7-|--7----7-7-7--7----7-7-7-7-|
E||---------------------------------------------------------------------
                         
--0----0-0-0--0----0-0-0-0-|--0----0-0-0--0----0-0-0-0-|-------|-------|-
--0----0-0-0--0----0-0-0-0-|--0----0-0-0--0----0-0-0-0-|-------|-------|-
--1----1-1-1--1----1-1-1-1-|--1----1-1-1--1----1-1-1-1-|-------|-------|-
--2----2-2-2--2----2-2-2-2-|--4----4-4-4--2----2-2-2-2-|-------|-------|-
--2----2-2-2--2----2-2-2-2-|--2----2-2-2--2----2-2-2-2-|-------|-------|-
--0----0-0-0--0----0-0-0-0-|--0----0-0-0--0----0-0-0-0-|-------|-------|-

E||--0----0-0-0--0-- --0--0--0--0--|--0----0-0-0--0----0-0-0-0-|
B||--0----0-0-0--0- ---0--0--0--0--|--0----0-0-0--0----0-0-0-0-|
G||--9----9-9-9--11----11-11-11-11-|--8----8-8-9--9----9-9-9-9-|
D||--9----9-9-9--11----11-11-11-11-|--9----9-9-9--9----9-9-9-9-|
A||--7----7-7-7--9--- -7--7--7--7--|--7----7-7-7--7----7-7-7-7-|
E||---------------------------------------------------------------------
                         
--0----0-0-0--0----0-0-0-0-|--0----0-0-0--0----0-0-0-0-|-------|-------|-
--0----0-0-0--0----0-0-0-0-|--0----0-0-0--0----0-0-0-0-|-------|-------|-
--1----1-1-1--1----1-1-1-1-|--1----1-1-1--1----1-1-1-1-|-------|-------|-
--2----2-2-2--2----2-2-2-2-|--4----4-4-4--2----2-2-2-2-|-------|-------|-
--2----2-2-2--2----2-2-2-2-|--2----2-2-2--2----2-2-2-2-|-------|-------|-
--0----0-0-0--0----0-0-0-0-|--0----0-0-0--0----0-0-0-0-|-------|-------|-

Pants: pēc ievada principa

Piedziedājums: F#m | A | E | E
               F#m | B | E | E 

Pārējas: E 

Vārdi:

E
Kara laukā tu un kara laukā es
E
Brīdis neatļauj vairs spēlēt paslēpes, dzirdi

Piedziedājums:
 
F#m          A             E
Kalniem pāri citi kalni būs
F#m                 B                  E
Ar vienu soli pāri tiem, ar vienu                    soli


Cīņas karstumā kļūst nenošķirams viss
Mazās uzvaras vai lieli upuri, redzi

Piedziedājums: 


Kalniem pāri citi kalni būs
Ar vienu soli pāri tiem, ar vienu soli


Zalves rībēt beigs, līdz lepnums atkāpsies
Zeme mītā reiz, jau atkal atkal zāle dīkst, jūti, jūti

Piedz

Interlude: Skaistāk, ka spēlē akordus C#m un H ar pirmo atvērtu!

C#m           B          E/G#    
Simtiem vēl, tūkstošiem, reižu paklupsim, 
   A                        C#m
Un simtiem punu pieres vidū būs
              B                   E/G#  
Viss ar laiku sadzīst, visi sniegi kūst
                  A                      C#m 
Pavasaris līdz ar lediem salauzis ir arī mūs 
            B                         F#m
Izskalojot krastus, tik stipras upes plūst...

Piedziedājums:

Kalniem pāri citi kalni būs
Ar vienu soli pāri tiem, ar vienu soli