Miglis (Ar noslēguma solo)

The Sound Poets

Izpildītājs:
The Sound Poets
Mūzikas autors:
The Sound Poets
Nosaukums:
Miglis (Ar noslēguma solo)
Dalīties:
Seko jaunumiem:
Pamata akordi!
(Dziesmas īstajā versijā ir savādāka fingerstyle picking spēle, maainot uzsvarus uz dažādām notīm)

D
Viegli būt tik daudz kam, uz brīdi atmirdzēt 
Un runāt svešiem vārdiem to burzmā iedarēt
G
Vai zini pats kas esi? 
                D
Vai zini kas ir tavs?
G
Kad migla vālos velsies
                D
to pušu šķels vien tava balss.

Soļot vienu ceļu, simts takās neizklīst 
Un malduguņu viltam, to dūksnā neiestigt.
Vai zini pats kas esi? Vai zini kas ir tavs?
Kad migla vālos velsies 
to pušu šķels vien tava balss.

Vai zini pats kas esi, vai zini kas ir tavs?
Kad migla vālos velsies to pusu šķels vien tava balss
Ja zini savu gaismu uz āru atļauj spīdēt tai
Un miglas vālos velsies, 
bet lai jau veļas, lai jau lai.

Pāreja uz solo:

Hm | G| Hm | G

Solo:

Lieliskais Normunda Lukša noslēguma soliņš! 
Dzīvīgumam izmantojot „Delay” pedāļa efektus!

Pamata soliņš


e|-------14----------14----------14-----------------|
B|----------15----------15----------15-------17-15--|
G|-14-16-------14-16-------14-16-------14-16--------|
D|--------------------------------------------------|
A|--------------------------------------------------|
E|--------------------------------------------------|
                        X4

Soliņa papildinājums

e|-------14----------14----------15----------17-----|
B|----------15----------15----------15---------15---|
G|-14-16-------14-16-------14-16-------14-16--------|
D|--------------------------------------------------|
A|--------------------------------------------------|
E|--------------------------------------------------|